ISO-10303-21;
HEADER;
FILE_DESCRIPTION(('CATIA V5 STEP Exchange'),'2;1');

FILE_NAME('C:\\Users\\Astroboy\\Desktop\\RIDIX\\work\\RDBG200C.8091.stp','2017-03-06T16:58:52+00:00',('none'),('none'),'CATIA Version 5 Release 19 GA (IN-10)','CATIA V5 STEP AP203','none');

FILE_SCHEMA(('CONFIG_CONTROL_DESIGN'));

ENDSEC;
/* file written by CATIA V5R19 */
DATA;
#5=PRODUCT('RDBG200C.8091','','',(#2)) ;
#1=APPLICATION_CONTEXT('configuration controlled 3D design of mechanical parts and assemblies') ;
#14=PRODUCT_DEFINITION('',' ',#6,#3) ;
#16=SECURITY_CLASSIFICATION(' ',' ',#15) ;
#15=SECURITY_CLASSIFICATION_LEVEL('unclassified') ;
#47=CARTESIAN_POINT(' ',(0.,0.,0.)) ;
#51=CARTESIAN_POINT('Line Origine',(0.,0.,0.)) ;
#55=CARTESIAN_POINT('Limit',(0.,0.,0.)) ;
#56=CARTESIAN_POINT('Limit',(20.,0.,0.)) ;
#63=CARTESIAN_POINT('Line Origine',(0.,0.,0.)) ;
#67=CARTESIAN_POINT('Limit',(0.,0.,0.)) ;
#68=CARTESIAN_POINT('Limit',(0.,20.,0.)) ;
#72=CARTESIAN_POINT('Line Origine',(0.,0.,0.)) ;
#76=CARTESIAN_POINT('Limit',(0.,0.,0.)) ;
#77=CARTESIAN_POINT('Limit',(0.,0.,20.)) ;
#81=CARTESIAN_POINT('Punto.1',(0.,0.,0.)) ;
#83=CARTESIAN_POINT('Axis2P3D Location',(0.,0.,-78.)) ;
#88=CARTESIAN_POINT('Axis2P3D Location',(0.,0.,-78.)) ;
#92=CARTESIAN_POINT('Vertex',(-43.6487925181,23.8454440313,-78.)) ;
#94=CARTESIAN_POINT('Vertex',(43.6487925181,-23.8454440313,-78.)) ;
#97=CARTESIAN_POINT('Line Origine',(-43.7639603063,23.9083604808,-76.5)) ;
#101=CARTESIAN_POINT('Vertex',(-43.8791280945,23.9712769302,-75.)) ;
#104=CARTESIAN_POINT('Axis2P3D Location',(0.,0.,-75.)) ;
#108=CARTESIAN_POINT('Vertex',(43.8791280945,-23.9712769302,-75.)) ;
#111=CARTESIAN_POINT('Line Origine',(43.7639603063,-23.9083604808,-76.5)) ;
#123=CARTESIAN_POINT('Axis2P3D Location',(0.,0.,-78.)) ;
#128=CARTESIAN_POINT('Axis2P3D Location',(0.,0.,-75.)) ;
#140=CARTESIAN_POINT('Axis2P3D Location',(0.,0.,-32.5000000003)) ;
#145=CARTESIAN_POINT('Axis2P3D Location',(0.,0.,-4.26325641456E-014)) ;
#149=CARTESIAN_POINT('Vertex',(-48.7058321849,26.6081173925,-4.26325641456E-014)) ;
#151=CARTESIAN_POINT('Vertex',(48.7058321849,-26.6081173925,-4.26325641456E-014)) ;
#154=CARTESIAN_POINT('Line Origine',(-48.7058321849,26.6081173925,2.5)) ;
#158=CARTESIAN_POINT('Vertex',(-48.7058321849,26.6081173925,5.)) ;
#161=CARTESIAN_POINT('Axis2P3D Location',(0.,0.,5.)) ;
#165=CARTESIAN_POINT('Vertex',(48.7058321849,-26.6081173925,5.)) ;
#168=CARTESIAN_POINT('Line Origine',(48.7058321849,-26.6081173925,2.5)) ;
#180=CARTESIAN_POINT('Axis2P3D Location',(0.,0.,-4.26325641456E-014)) ;
#185=CARTESIAN_POINT('Axis2P3D Location',(0.,0.,5.)) ;
#197=CARTESIAN_POINT('Axis2P3D Location',(0.,0.,-32.5000000003)) ;
#202=CARTESIAN_POINT('Axis2P3D Location',(0.,0.,5.)) ;
#206=CARTESIAN_POINT('Vertex',(-46.5118757802,25.409553546,5.)) ;
#208=CARTESIAN_POINT('Vertex',(46.5118757802,-25.409553546,5.)) ;
#211=CARTESIAN_POINT('Line Origine',(-46.5118757802,25.409553546,9.)) ;
#215=CARTESIAN_POINT('Vertex',(-46.5118757802,25.409553546,13.)) ;
#218=CARTESIAN_POINT('Axis2P3D Location',(0.,0.,13.)) ;
#222=CARTESIAN_POINT('Vertex',(46.5118757802,-25.409553546,13.)) ;
#225=CARTESIAN_POINT('Line Origine',(46.5118757802,-25.409553546,9.)) ;
#237=CARTESIAN_POINT('Axis2P3D Location',(0.,0.,5.)) ;
#242=CARTESIAN_POINT('Axis2P3D Location',(0.,0.,13.)) ;
#254=CARTESIAN_POINT('Axis2P3D Location',(0.,0.,10.)) ;
#259=CARTESIAN_POINT('Axis2P3D Location',(0.,0.,13.)) ;
#263=CARTESIAN_POINT('Vertex',(-37.7360501613,20.61529816,13.)) ;
#265=CARTESIAN_POINT('Vertex',(37.7360501613,-20.61529816,13.)) ;
#268=CARTESIAN_POINT('Axis2P3D Location',(-37.7360501613,20.61529816,10.)) ;
#272=CARTESIAN_POINT('Vertex',(-35.1033024756,19.1770215442,10.)) ;
#275=CARTESIAN_POINT('Axis2P3D Location',(0.,0.,10.)) ;
#279=CARTESIAN_POINT('Vertex',(35.1033024756,-19.1770215442,10.)) ;
#282=CARTESIAN_POINT('Axis2P3D Location',(37.7360501613,-20.61529816,10.)) ;
#294=CARTESIAN_POINT('Axis2P3D Location',(0.,0.,13.)) ;
#299=CARTESIAN_POINT('Axis2P3D Location',(0.,0.,10.)) ;
#311=CARTESIAN_POINT('Axis2P3D Location',(0.,0.,-32.5000000003)) ;
#316=CARTESIAN_POINT('Line Origine',(-35.1033024756,19.1770215442,-34.)) ;
#320=CARTESIAN_POINT('Vertex',(-35.1033024756,19.1770215442,-78.)) ;
#323=CARTESIAN_POINT('Axis2P3D Location',(0.,0.,-78.)) ;
#327=CARTESIAN_POINT('Vertex',(35.1033024756,-19.1770215442,-78.)) ;
#330=CARTESIAN_POINT('Line Origine',(35.1033024756,-19.1770215442,-34.)) ;
#342=CARTESIAN_POINT('Axis2P3D Location',(0.,0.,-78.)) ;
#354=CARTESIAN_POINT('Axis2P3D Location',(-49.7375340094,0.,-78.)) ;
#368=CARTESIAN_POINT('Axis2P3D Location',(-53.,0.,5.)) ;
#382=CARTESIAN_POINT('Axis2P3D Location',(-43.,0.,13.)) ;
#396=CARTESIAN_POINT('Axis2P3D Location',(0.,0.,-32.5000000003)) ;
#401=CARTESIAN_POINT('Line Origine',(43.8791280945,-23.9712769302,-37.5)) ;
#405=CARTESIAN_POINT('Vertex',(43.8791280945,-23.9712769302,-1.)) ;
#408=CARTESIAN_POINT('Line Origine',(-43.8791280945,23.9712769302,-37.5)) ;
#412=CARTESIAN_POINT('Vertex',(-43.8791280945,23.9712769302,-1.)) ;
#415=CARTESIAN_POINT('Axis2P3D Location',(0.,0.,-1.)) ;
#427=CARTESIAN_POINT('Axis2P3D Location',(0.,0.,-1.)) ;
#439=CARTESIAN_POINT('Axis2P3D Location',(-55.5,0.,6.2172489379E-015)) ;
#448=CARTESIAN_POINT('Axis2P3D Location',(1.42108547152E-014,-8.43769498715E-015,6.2172489379E-015)) ;
#452=CARTESIAN_POINT('Vertex',(44.7567106455,-24.4507024887,6.2172489379E-015)) ;
#454=CARTESIAN_POINT('Vertex',(-44.7567106564,24.4507024688,6.2172489379E-015)) ;
#457=CARTESIAN_POINT('Axis2P3D Location',(7.1054273576E-015,-2.0650148258E-014,6.2172489379E-015)) ;
#467=CARTESIAN_POINT('Axis2P3D Location',(3.5527136788E-015,0.,-1.)) ;
#472=CARTESIAN_POINT('Axis2P3D Location',(44.7567106455,-24.4507024887,-1.)) ;
#477=CARTESIAN_POINT('Axis2P3D Location',(-44.7567106564,24.4507024688,-1.)) ;
#489=CARTESIAN_POINT('Axis2P3D Location',(1.24344978758E-014,1.42108547152E-014,-1.)) ;
#504=CARTESIAN_POINT('Axis2P3D Location',(0.,0.,6.2172489379E-015)) ;
#508=CARTESIAN_POINT('Limit',(60.5,0.,6.2172489379E-015)) ;
#509=CARTESIAN_POINT('Limit',(-60.5,1.94585287553E-014,6.2172489379E-015)) ;
#512=CARTESIAN_POINT('Axis2P3D Location',(0.,0.,6.2172489379E-015)) ;
#516=CARTESIAN_POINT('Limit',(-60.5,1.94585287553E-014,6.2172489379E-015)) ;
#517=CARTESIAN_POINT('Limit',(60.5,0.,6.2172489379E-015)) ;
#52=DIRECTION('Vector Direction',(1.,0.,0.)) ;
#64=DIRECTION('Vector Direction',(0.,1.,0.)) ;
#73=DIRECTION('Vector Direction',(0.,0.,1.)) ;
#84=DIRECTION('Axis2P3D Direction',(-0.,-0.,1.)) ;
#85=DIRECTION('Axis2P3D XDirection',(-0.87758256189,0.479425538604,0.)) ;
#89=DIRECTION('Axis2P3D Direction',(-0.,0.,1.)) ;
#98=DIRECTION('Vector Direction',(-0.0764863600039,0.0417846889092,0.996194698092)) ;
#105=DIRECTION('Axis2P3D Direction',(-0.,0.,1.)) ;
#112=DIRECTION('Vector Direction',(0.0764863600039,-0.0417846889092,0.996194698092)) ;
#124=DIRECTION('Axis2P3D Direction',(-0.,0.,1.)) ;
#129=DIRECTION('Axis2P3D Direction',(-0.,0.,1.)) ;
#141=DIRECTION('Axis2P3D Direction',(0.,0.,-1.)) ;
#142=DIRECTION('Axis2P3D XDirection',(-0.87758256189,0.479425538604,-0.)) ;
#146=DIRECTION('Axis2P3D Direction',(0.,0.,-1.)) ;
#155=DIRECTION('Vector Direction',(0.,0.,-1.)) ;
#162=DIRECTION('Axis2P3D Direction',(0.,0.,-1.)) ;
#169=DIRECTION('Vector Direction',(0.,0.,-1.)) ;
#181=DIRECTION('Axis2P3D Direction',(0.,0.,-1.)) ;
#186=DIRECTION('Axis2P3D Direction',(0.,0.,-1.)) ;
#198=DIRECTION('Axis2P3D Direction',(0.,0.,-1.)) ;
#199=DIRECTION('Axis2P3D XDirection',(-0.87758256189,0.479425538604,-0.)) ;
#203=DIRECTION('Axis2P3D Direction',(0.,0.,-1.)) ;
#212=DIRECTION('Vector Direction',(0.,0.,-1.)) ;
#219=DIRECTION('Axis2P3D Direction',(0.,0.,-1.)) ;
#226=DIRECTION('Vector Direction',(0.,0.,-1.)) ;
#238=DIRECTION('Axis2P3D Direction',(0.,0.,-1.)) ;
#243=DIRECTION('Axis2P3D Direction',(0.,0.,-1.)) ;
#255=DIRECTION('Axis2P3D Direction',(0.,0.,-1.)) ;
#256=DIRECTION('Axis2P3D XDirection',(-0.87758256189,0.479425538604,0.)) ;
#260=DIRECTION('Axis2P3D Direction',(0.,0.,-1.)) ;
#269=DIRECTION('Axis2P3D Direction',(-0.479425538604,-0.87758256189,-0.)) ;
#276=DIRECTION('Axis2P3D Direction',(0.,0.,-1.)) ;
#283=DIRECTION('Axis2P3D Direction',(0.479425538604,0.87758256189,0.)) ;
#295=DIRECTION('Axis2P3D Direction',(0.,0.,-1.)) ;
#300=DIRECTION('Axis2P3D Direction',(0.,0.,-1.)) ;
#312=DIRECTION('Axis2P3D Direction',(0.,0.,-1.)) ;
#313=DIRECTION('Axis2P3D XDirection',(-0.87758256189,0.479425538604,-0.)) ;
#317=DIRECTION('Vector Direction',(0.,0.,-1.)) ;
#324=DIRECTION('Axis2P3D Direction',(0.,0.,-1.)) ;
#331=DIRECTION('Vector Direction',(0.,0.,-1.)) ;
#343=DIRECTION('Axis2P3D Direction',(0.,0.,-1.)) ;
#355=DIRECTION('Axis2P3D Direction',(0.,0.,-1.)) ;
#356=DIRECTION('Axis2P3D XDirection',(1.,0.,0.)) ;
#369=DIRECTION('Axis2P3D Direction',(0.,0.,-1.)) ;
#370=DIRECTION('Axis2P3D XDirection',(1.,0.,0.)) ;
#383=DIRECTION('Axis2P3D Direction',(0.,0.,-1.)) ;
#384=DIRECTION('Axis2P3D XDirection',(1.,0.,0.)) ;
#397=DIRECTION('Axis2P3D Direction',(0.,0.,-1.)) ;
#398=DIRECTION('Axis2P3D XDirection',(-0.87758256189,0.479425538604,-0.)) ;
#402=DIRECTION('Vector Direction',(0.,0.,-1.)) ;
#409=DIRECTION('Vector Direction',(0.,0.,-1.)) ;
#416=DIRECTION('Axis2P3D Direction',(0.,0.,-1.)) ;
#428=DIRECTION('Axis2P3D Direction',(0.,0.,-1.)) ;
#440=DIRECTION('Axis2P3D Direction',(0.,0.,-1.)) ;
#441=DIRECTION('Axis2P3D XDirection',(1.,0.,0.)) ;
#449=DIRECTION('Axis2P3D Direction',(0.,0.,-1.)) ;
#458=DIRECTION('Axis2P3D Direction',(0.,0.,-1.)) ;
#468=DIRECTION('Axis2P3D Direction',(0.,0.,-1.)) ;
#469=DIRECTION('Axis2P3D XDirection',(0.991756624849,-0.128135853956,0.)) ;
#473=DIRECTION('Axis2P3D Direction',(0.479425538994,0.877582561677,0.)) ;
#478=DIRECTION('Axis2P3D Direction',(-0.479425538604,-0.87758256189,-0.)) ;
#490=DIRECTION('Axis2P3D Direction',(-0.,0.,-1.)) ;
#491=DIRECTION('Axis2P3D XDirection',(-0.87758256189,0.479425538604,0.)) ;
#505=DIRECTION('Axis2P3D Direction',(0.,0.,-1.)) ;
#513=DIRECTION('Axis2P3D Direction',(0.,0.,-1.)) ;
#48=AXIS2_PLACEMENT_3D(' ',#47,$,$) ;
#86=AXIS2_PLACEMENT_3D('Cone Axis2P3D',#83,#84,#85) ;
#90=AXIS2_PLACEMENT_3D('Circle Axis2P3D',#88,#89,$) ;
#106=AXIS2_PLACEMENT_3D('Circle Axis2P3D',#104,#105,$) ;
#125=AXIS2_PLACEMENT_3D('Circle Axis2P3D',#123,#124,$) ;
#130=AXIS2_PLACEMENT_3D('Circle Axis2P3D',#128,#129,$) ;
#143=AXIS2_PLACEMENT_3D('Cylinder Axis2P3D',#140,#141,#142) ;
#147=AXIS2_PLACEMENT_3D('Circle Axis2P3D',#145,#146,$) ;
#163=AXIS2_PLACEMENT_3D('Circle Axis2P3D',#161,#162,$) ;
#182=AXIS2_PLACEMENT_3D('Circle Axis2P3D',#180,#181,$) ;
#187=AXIS2_PLACEMENT_3D('Circle Axis2P3D',#185,#186,$) ;
#200=AXIS2_PLACEMENT_3D('Cylinder Axis2P3D',#197,#198,#199) ;
#204=AXIS2_PLACEMENT_3D('Circle Axis2P3D',#202,#203,$) ;
#220=AXIS2_PLACEMENT_3D('Circle Axis2P3D',#218,#219,$) ;
#239=AXIS2_PLACEMENT_3D('Circle Axis2P3D',#237,#238,$) ;
#244=AXIS2_PLACEMENT_3D('Circle Axis2P3D',#242,#243,$) ;
#257=AXIS2_PLACEMENT_3D('Torus Axis2P3D',#254,#255,#256) ;
#261=AXIS2_PLACEMENT_3D('Circle Axis2P3D',#259,#260,$) ;
#270=AXIS2_PLACEMENT_3D('Circle Axis2P3D',#268,#269,$) ;
#277=AXIS2_PLACEMENT_3D('Circle Axis2P3D',#275,#276,$) ;
#284=AXIS2_PLACEMENT_3D('Circle Axis2P3D',#282,#283,$) ;
#296=AXIS2_PLACEMENT_3D('Circle Axis2P3D',#294,#295,$) ;
#301=AXIS2_PLACEMENT_3D('Circle Axis2P3D',#299,#300,$) ;
#314=AXIS2_PLACEMENT_3D('Cylinder Axis2P3D',#311,#312,#313) ;
#325=AXIS2_PLACEMENT_3D('Circle Axis2P3D',#323,#324,$) ;
#344=AXIS2_PLACEMENT_3D('Circle Axis2P3D',#342,#343,$) ;
#357=AXIS2_PLACEMENT_3D('Plane Axis2P3D',#354,#355,#356) ;
#371=AXIS2_PLACEMENT_3D('Plane Axis2P3D',#368,#369,#370) ;
#385=AXIS2_PLACEMENT_3D('Plane Axis2P3D',#382,#383,#384) ;
#399=AXIS2_PLACEMENT_3D('Cylinder Axis2P3D',#396,#397,#398) ;
#417=AXIS2_PLACEMENT_3D('Circle Axis2P3D',#415,#416,$) ;
#429=AXIS2_PLACEMENT_3D('Circle Axis2P3D',#427,#428,$) ;
#442=AXIS2_PLACEMENT_3D('Plane Axis2P3D',#439,#440,#441) ;
#450=AXIS2_PLACEMENT_3D('Circle Axis2P3D',#448,#449,$) ;
#459=AXIS2_PLACEMENT_3D('Circle Axis2P3D',#457,#458,$) ;
#470=AXIS2_PLACEMENT_3D('Torus Axis2P3D',#467,#468,#469) ;
#474=AXIS2_PLACEMENT_3D('Circle Axis2P3D',#472,#473,$) ;
#479=AXIS2_PLACEMENT_3D('Circle Axis2P3D',#477,#478,$) ;
#492=AXIS2_PLACEMENT_3D('Torus Axis2P3D',#489,#490,#491) ;
#506=AXIS2_PLACEMENT_3D('Circle Axis2P3D',#504,#505,$) ;
#514=AXIS2_PLACEMENT_3D('Circle Axis2P3D',#512,#513,$) ;
#40=PRODUCT_DEFINITION_SHAPE(' ',' ',#14) ;
#59=COMPOSITE_CURVE('Linea.1',(#58),.U.) ;
#71=COMPOSITE_CURVE('Linea.2',(#70),.U.) ;
#80=COMPOSITE_CURVE('Linea.3',(#79),.U.) ;
#520=COMPOSITE_CURVE('Risultato.1 (Cerchio.1)',(#511,#519),.U.) ;
#58=COMPOSITE_CURVE_SEGMENT(.DISCONTINUOUS.,.T.,#57) ;
#70=COMPOSITE_CURVE_SEGMENT(.DISCONTINUOUS.,.T.,#69) ;
#79=COMPOSITE_CURVE_SEGMENT(.DISCONTINUOUS.,.T.,#78) ;
#511=COMPOSITE_CURVE_SEGMENT(.CONTINUOUS.,.T.,#510) ;
#519=COMPOSITE_CURVE_SEGMENT(.DISCONTINUOUS.,.T.,#518) ;
#31=APPROVAL_PERSON_ORGANIZATION(#25,#21,#19) ;
#25=PERSON_AND_ORGANIZATION(#22,#23) ;
#22=PERSON(' ',' ',' ',$,$,$) ;
#23=ORGANIZATION(' ',' ',' ') ;
#21=APPROVAL(#20,' ') ;
#20=APPROVAL_STATUS('not_yet_approved') ;
#19=APPROVAL_ROLE('APPROVER') ;
#13=DATE_AND_TIME(#11,#12) ;
#12=LOCAL_TIME(17,58,52.,#10) ;
#10=COORDINATED_UNIVERSAL_TIME_OFFSET(0,0,.AHEAD.) ;
#117=ORIENTED_EDGE('',*,*,#96,.F.) ;
#118=ORIENTED_EDGE('',*,*,#103,.T.) ;
#119=ORIENTED_EDGE('',*,*,#110,.T.) ;
#120=ORIENTED_EDGE('',*,*,#115,.F.) ;
#134=ORIENTED_EDGE('',*,*,#127,.F.) ;
#135=ORIENTED_EDGE('',*,*,#115,.T.) ;
#136=ORIENTED_EDGE('',*,*,#132,.T.) ;
#137=ORIENTED_EDGE('',*,*,#103,.F.) ;
#174=ORIENTED_EDGE('',*,*,#153,.F.) ;
#175=ORIENTED_EDGE('',*,*,#160,.T.) ;
#176=ORIENTED_EDGE('',*,*,#167,.T.) ;
#177=ORIENTED_EDGE('',*,*,#172,.F.) ;
#191=ORIENTED_EDGE('',*,*,#184,.F.) ;
#192=ORIENTED_EDGE('',*,*,#172,.T.) ;
#193=ORIENTED_EDGE('',*,*,#189,.T.) ;
#194=ORIENTED_EDGE('',*,*,#160,.F.) ;
#231=ORIENTED_EDGE('',*,*,#210,.F.) ;
#232=ORIENTED_EDGE('',*,*,#217,.T.) ;
#233=ORIENTED_EDGE('',*,*,#224,.T.) ;
#234=ORIENTED_EDGE('',*,*,#229,.F.) ;
#248=ORIENTED_EDGE('',*,*,#241,.F.) ;
#249=ORIENTED_EDGE('',*,*,#229,.T.) ;
#250=ORIENTED_EDGE('',*,*,#246,.T.) ;
#251=ORIENTED_EDGE('',*,*,#217,.F.) ;
#288=ORIENTED_EDGE('',*,*,#267,.F.) ;
#289=ORIENTED_EDGE('',*,*,#274,.T.) ;
#290=ORIENTED_EDGE('',*,*,#281,.T.) ;
#291=ORIENTED_EDGE('',*,*,#286,.F.) ;
#305=ORIENTED_EDGE('',*,*,#298,.F.) ;
#306=ORIENTED_EDGE('',*,*,#286,.T.) ;
#307=ORIENTED_EDGE('',*,*,#303,.T.) ;
#308=ORIENTED_EDGE('',*,*,#274,.F.) ;
#336=ORIENTED_EDGE('',*,*,#281,.F.) ;
#337=ORIENTED_EDGE('',*,*,#322,.T.) ;
#338=ORIENTED_EDGE('',*,*,#329,.T.) ;
#339=ORIENTED_EDGE('',*,*,#334,.F.) ;
#348=ORIENTED_EDGE('',*,*,#303,.F.) ;
#349=ORIENTED_EDGE('',*,*,#334,.T.) ;
#350=ORIENTED_EDGE('',*,*,#346,.T.) ;
#351=ORIENTED_EDGE('',*,*,#322,.F.) ;
#360=ORIENTED_EDGE('',*,*,#127,.T.) ;
#361=ORIENTED_EDGE('',*,*,#96,.T.) ;
#364=ORIENTED_EDGE('',*,*,#329,.F.) ;
#365=ORIENTED_EDGE('',*,*,#346,.F.) ;
#374=ORIENTED_EDGE('',*,*,#167,.F.) ;
#375=ORIENTED_EDGE('',*,*,#189,.F.) ;
#378=ORIENTED_EDGE('',*,*,#241,.T.) ;
#379=ORIENTED_EDGE('',*,*,#210,.T.) ;
#388=ORIENTED_EDGE('',*,*,#224,.F.) ;
#389=ORIENTED_EDGE('',*,*,#246,.F.) ;
#392=ORIENTED_EDGE('',*,*,#298,.T.) ;
#393=ORIENTED_EDGE('',*,*,#267,.T.) ;
#421=ORIENTED_EDGE('',*,*,#407,.F.) ;
#422=ORIENTED_EDGE('',*,*,#110,.F.) ;
#423=ORIENTED_EDGE('',*,*,#414,.T.) ;
#424=ORIENTED_EDGE('',*,*,#419,.F.) ;
#433=ORIENTED_EDGE('',*,*,#414,.F.) ;
#434=ORIENTED_EDGE('',*,*,#132,.F.) ;
#435=ORIENTED_EDGE('',*,*,#407,.T.) ;
#436=ORIENTED_EDGE('',*,*,#431,.F.) ;
#445=ORIENTED_EDGE('',*,*,#184,.T.) ;
#446=ORIENTED_EDGE('',*,*,#153,.T.) ;
#463=ORIENTED_EDGE('',*,*,#456,.T.) ;
#464=ORIENTED_EDGE('',*,*,#461,.T.) ;
#483=ORIENTED_EDGE('',*,*,#431,.T.) ;
#484=ORIENTED_EDGE('',*,*,#476,.T.) ;
#485=ORIENTED_EDGE('',*,*,#461,.F.) ;
#486=ORIENTED_EDGE('',*,*,#481,.F.) ;
#495=ORIENTED_EDGE('',*,*,#419,.T.) ;
#496=ORIENTED_EDGE('',*,*,#481,.T.) ;
#497=ORIENTED_EDGE('',*,*,#456,.F.) ;
#498=ORIENTED_EDGE('',*,*,#476,.F.) ;
#366=FACE_BOUND('',#363,.T.) ;
#380=FACE_BOUND('',#377,.T.) ;
#394=FACE_BOUND('',#391,.T.) ;
#465=FACE_BOUND('',#462,.T.) ;
#82=CLOSED_SHELL('Closed Shell',(#122,#139,#179,#196,#236,#253,#293,#310,#341,#353,#367,#381,#395,#426,#438,#466,#488,#500)) ;
#53=VECTOR('Line Direction',#52,1.) ;
#65=VECTOR('Line Direction',#64,1.) ;
#74=VECTOR('Line Direction',#73,1.) ;
#99=VECTOR('Line Direction',#98,1.) ;
#113=VECTOR('Line Direction',#112,1.) ;
#156=VECTOR('Line Direction',#155,1.) ;
#170=VECTOR('Line Direction',#169,1.) ;
#213=VECTOR('Line Direction',#212,1.) ;
#227=VECTOR('Line Direction',#226,1.) ;
#318=VECTOR('Line Direction',#317,1.) ;
#332=VECTOR('Line Direction',#331,1.) ;
#403=VECTOR('Line Direction',#402,1.) ;
#410=VECTOR('Line Direction',#409,1.) ;
#502=ADVANCED_BREP_SHAPE_REPRESENTATION('NONE',(#501),#46) ;
#49=SHAPE_REPRESENTATION(' ',(#48),#46) ;
#122=ADVANCED_FACE('PartBody',(#121),#87,.T.) ;
#139=ADVANCED_FACE('PartBody',(#138),#87,.T.) ;
#179=ADVANCED_FACE('PartBody',(#178),#144,.T.) ;
#196=ADVANCED_FACE('PartBody',(#195),#144,.T.) ;
#236=ADVANCED_FACE('PartBody',(#235),#201,.T.) ;
#253=ADVANCED_FACE('PartBody',(#252),#201,.T.) ;
#293=ADVANCED_FACE('PartBody',(#292),#258,.T.) ;
#310=ADVANCED_FACE('PartBody',(#309),#258,.T.) ;
#341=ADVANCED_FACE('PartBody',(#340),#315,.F.) ;
#353=ADVANCED_FACE('PartBody',(#352),#315,.F.) ;
#367=ADVANCED_FACE('PartBody',(#362,#366),#358,.T.) ;
#381=ADVANCED_FACE('PartBody',(#376,#380),#372,.F.) ;
#395=ADVANCED_FACE('PartBody',(#390,#394),#386,.F.) ;
#426=ADVANCED_FACE('PartBody',(#425),#400,.T.) ;
#438=ADVANCED_FACE('PartBody',(#437),#400,.T.) ;
#466=ADVANCED_FACE('PartBody',(#447,#465),#443,.T.) ;
#488=ADVANCED_FACE('PartBody',(#487),#471,.F.) ;
#500=ADVANCED_FACE('PartBody',(#499),#493,.F.) ;
#4=APPLICATION_PROTOCOL_DEFINITION('international standard','config_control_design',1994,#1) ;
#32=APPROVAL_DATE_TIME(#13,#21) ;
#501=MANIFOLD_SOLID_BREP('PartBody',#82) ;
#11=CALENDAR_DATE(2017,6,3) ;
#30=CC_DESIGN_APPROVAL(#21,(#16,#6,#14)) ;
#18=CC_DESIGN_DATE_AND_TIME_ASSIGNMENT(#13,#17,(#16)) ;
#29=CC_DESIGN_DATE_AND_TIME_ASSIGNMENT(#13,#28,(#14)) ;
#17=DATE_TIME_ROLE('classification_date') ;
#28=DATE_TIME_ROLE('creation_date') ;
#27=CC_DESIGN_PERSON_AND_ORGANIZATION_ASSIGNMENT(#25,#26,(#16)) ;
#33=CC_DESIGN_PERSON_AND_ORGANIZATION_ASSIGNMENT(#25,#34,(#6)) ;
#35=CC_DESIGN_PERSON_AND_ORGANIZATION_ASSIGNMENT(#25,#36,(#6,#14)) ;
#37=CC_DESIGN_PERSON_AND_ORGANIZATION_ASSIGNMENT(#25,#38,(#5)) ;
#26=PERSON_AND_ORGANIZATION_ROLE('classification_officer') ;
#34=PERSON_AND_ORGANIZATION_ROLE('design_supplier') ;
#36=PERSON_AND_ORGANIZATION_ROLE('creator') ;
#38=PERSON_AND_ORGANIZATION_ROLE('design_owner') ;
#39=CC_DESIGN_SECURITY_CLASSIFICATION(#16,(#6)) ;
#91=CIRCLE('generated circle',#90,49.7375340094) ;
#107=CIRCLE('generated circle',#106,50.) ;
#126=CIRCLE('generated circle',#125,49.7375340094) ;
#131=CIRCLE('generated circle',#130,50.) ;
#148=CIRCLE('generated circle',#147,55.5) ;
#164=CIRCLE('generated circle',#163,55.5) ;
#183=CIRCLE('generated circle',#182,55.5) ;
#188=CIRCLE('generated circle',#187,55.5) ;
#205=CIRCLE('generated circle',#204,53.) ;
#221=CIRCLE('generated circle',#220,53.) ;
#240=CIRCLE('generated circle',#239,53.) ;
#245=CIRCLE('generated circle',#244,53.) ;
#262=CIRCLE('generated circle',#261,43.) ;
#271=CIRCLE('generated circle',#270,3.) ;
#278=CIRCLE('generated circle',#277,40.) ;
#285=CIRCLE('generated circle',#284,3.) ;
#297=CIRCLE('generated circle',#296,43.) ;
#302=CIRCLE('generated circle',#301,40.) ;
#326=CIRCLE('generated circle',#325,40.) ;
#345=CIRCLE('generated circle',#344,40.) ;
#418=CIRCLE('generated circle',#417,50.) ;
#430=CIRCLE('generated circle',#429,50.) ;
#451=CIRCLE('generated circle',#450,51.) ;
#460=CIRCLE('generated circle',#459,51.) ;
#475=CIRCLE('generated circle',#474,1.) ;
#480=CIRCLE('generated circle',#479,1.) ;
#507=CIRCLE('generated circle',#506,60.5) ;
#515=CIRCLE('generated circle',#514,60.5) ;
#87=CONICAL_SURFACE('Cone',#86,49.7375340094,0.0872664625997) ;
#62=SHAPE_REPRESENTATION_RELATIONSHIP(' ',' ',#49,#60) ;
#503=SHAPE_REPRESENTATION_RELATIONSHIP(' ',' ',#49,#502) ;
#144=CYLINDRICAL_SURFACE('generated cylinder',#143,55.5) ;
#201=CYLINDRICAL_SURFACE('generated cylinder',#200,53.) ;
#315=CYLINDRICAL_SURFACE('generated cylinder',#314,40.) ;
#400=CYLINDRICAL_SURFACE('generated cylinder',#399,50.) ;
#258=TOROIDAL_SURFACE('homeo Torus',#257,43.,3.) ;
#471=TOROIDAL_SURFACE('homeo Torus',#470,51.,1.) ;
#493=TOROIDAL_SURFACE('homeo Torus',#492,51.,1.) ;
#3=DESIGN_CONTEXT(' ',#1,'design') ;
#96=EDGE_CURVE('',#93,#95,#91,.F.) ;
#103=EDGE_CURVE('',#93,#102,#100,.T.) ;
#110=EDGE_CURVE('',#102,#109,#107,.F.) ;
#115=EDGE_CURVE('',#95,#109,#114,.T.) ;
#127=EDGE_CURVE('',#95,#93,#126,.F.) ;
#132=EDGE_CURVE('',#109,#102,#131,.F.) ;
#153=EDGE_CURVE('',#150,#152,#148,.T.) ;
#160=EDGE_CURVE('',#150,#159,#157,.F.) ;
#167=EDGE_CURVE('',#159,#166,#164,.T.) ;
#172=EDGE_CURVE('',#152,#166,#171,.F.) ;
#184=EDGE_CURVE('',#152,#150,#183,.T.) ;
#189=EDGE_CURVE('',#166,#159,#188,.T.) ;
#210=EDGE_CURVE('',#207,#209,#205,.T.) ;
#217=EDGE_CURVE('',#207,#216,#214,.F.) ;
#224=EDGE_CURVE('',#216,#223,#221,.T.) ;
#229=EDGE_CURVE('',#209,#223,#228,.F.) ;
#241=EDGE_CURVE('',#209,#207,#240,.T.) ;
#246=EDGE_CURVE('',#223,#216,#245,.T.) ;
#267=EDGE_CURVE('',#264,#266,#262,.T.) ;
#274=EDGE_CURVE('',#264,#273,#271,.F.) ;
#281=EDGE_CURVE('',#273,#280,#278,.T.) ;
#286=EDGE_CURVE('',#266,#280,#285,.F.) ;
#298=EDGE_CURVE('',#266,#264,#297,.T.) ;
#303=EDGE_CURVE('',#280,#273,#302,.T.) ;
#322=EDGE_CURVE('',#273,#321,#319,.T.) ;
#329=EDGE_CURVE('',#321,#328,#326,.T.) ;
#334=EDGE_CURVE('',#280,#328,#333,.T.) ;
#346=EDGE_CURVE('',#328,#321,#345,.T.) ;
#407=EDGE_CURVE('',#109,#406,#404,.F.) ;
#414=EDGE_CURVE('',#102,#413,#411,.F.) ;
#419=EDGE_CURVE('',#406,#413,#418,.F.) ;
#431=EDGE_CURVE('',#413,#406,#430,.F.) ;
#456=EDGE_CURVE('',#453,#455,#451,.F.) ;
#461=EDGE_CURVE('',#455,#453,#460,.F.) ;
#476=EDGE_CURVE('',#406,#453,#475,.T.) ;
#481=EDGE_CURVE('',#413,#455,#480,.T.) ;
#116=EDGE_LOOP('',(#117,#118,#119,#120)) ;
#133=EDGE_LOOP('',(#134,#135,#136,#137)) ;
#173=EDGE_LOOP('',(#174,#175,#176,#177)) ;
#190=EDGE_LOOP('',(#191,#192,#193,#194)) ;
#230=EDGE_LOOP('',(#231,#232,#233,#234)) ;
#247=EDGE_LOOP('',(#248,#249,#250,#251)) ;
#287=EDGE_LOOP('',(#288,#289,#290,#291)) ;
#304=EDGE_LOOP('',(#305,#306,#307,#308)) ;
#335=EDGE_LOOP('',(#336,#337,#338,#339)) ;
#347=EDGE_LOOP('',(#348,#349,#350,#351)) ;
#359=EDGE_LOOP('',(#360,#361)) ;
#363=EDGE_LOOP('',(#364,#365)) ;
#373=EDGE_LOOP('',(#374,#375)) ;
#377=EDGE_LOOP('',(#378,#379)) ;
#387=EDGE_LOOP('',(#388,#389)) ;
#391=EDGE_LOOP('',(#392,#393)) ;
#420=EDGE_LOOP('',(#421,#422,#423,#424)) ;
#432=EDGE_LOOP('',(#433,#434,#435,#436)) ;
#444=EDGE_LOOP('',(#445,#446)) ;
#462=EDGE_LOOP('',(#463,#464)) ;
#482=EDGE_LOOP('',(#483,#484,#485,#486)) ;
#494=EDGE_LOOP('',(#495,#496,#497,#498)) ;
#121=FACE_OUTER_BOUND('',#116,.T.) ;
#138=FACE_OUTER_BOUND('',#133,.T.) ;
#178=FACE_OUTER_BOUND('',#173,.T.) ;
#195=FACE_OUTER_BOUND('',#190,.T.) ;
#235=FACE_OUTER_BOUND('',#230,.T.) ;
#252=FACE_OUTER_BOUND('',#247,.T.) ;
#292=FACE_OUTER_BOUND('',#287,.T.) ;
#309=FACE_OUTER_BOUND('',#304,.T.) ;
#340=FACE_OUTER_BOUND('',#335,.T.) ;
#352=FACE_OUTER_BOUND('',#347,.T.) ;
#362=FACE_OUTER_BOUND('',#359,.T.) ;
#376=FACE_OUTER_BOUND('',#373,.T.) ;
#390=FACE_OUTER_BOUND('',#387,.T.) ;
#425=FACE_OUTER_BOUND('',#420,.T.) ;
#437=FACE_OUTER_BOUND('',#432,.T.) ;
#447=FACE_OUTER_BOUND('',#444,.T.) ;
#487=FACE_OUTER_BOUND('',#482,.T.) ;
#499=FACE_OUTER_BOUND('',#494,.T.) ;
#61=GEOMETRIC_SET('NONE',(#59,#71,#80,#81,#520)) ;
#60=GEOMETRICALLY_BOUNDED_SURFACE_SHAPE_REPRESENTATION('NONE',(#61),#46) ;
#45=UNCERTAINTY_MEASURE_WITH_UNIT(LENGTH_MEASURE(0.005),#41,'distance_accuracy_value','CONFUSED CURVE UNCERTAINTY') ;
#54=LINE('Line',#51,#53) ;
#66=LINE('Line',#63,#65) ;
#75=LINE('Line',#72,#74) ;
#100=LINE('Line',#97,#99) ;
#114=LINE('Line',#111,#113) ;
#157=LINE('Line',#154,#156) ;
#171=LINE('Line',#168,#170) ;
#214=LINE('Line',#211,#213) ;
#228=LINE('Line',#225,#227) ;
#319=LINE('Line',#316,#318) ;
#333=LINE('Line',#330,#332) ;
#404=LINE('Line',#401,#403) ;
#411=LINE('Line',#408,#410) ;
#2=MECHANICAL_CONTEXT(' ',#1,'mechanical') ;
#24=PERSONAL_ADDRESS(' ',' ',' ',' ',' ',' ',' ',' ',' ',' ',' ',' ',(#22),' ') ;
#358=PLANE('Plane',#357) ;
#372=PLANE('Plane',#371) ;
#386=PLANE('Plane',#385) ;
#443=PLANE('Plane',#442) ;
#43=PLANE_ANGLE_MEASURE_WITH_UNIT(PLANE_ANGLE_MEASURE(0.0174532925199),#42) ;
#7=PRODUCT_CATEGORY('part',$) ;
#9=PRODUCT_CATEGORY_RELATIONSHIP(' ',' ',#7,#8) ;
#6=PRODUCT_DEFINITION_FORMATION_WITH_SPECIFIED_SOURCE('',' ',#5,.NOT_KNOWN.) ;
#8=PRODUCT_RELATED_PRODUCT_CATEGORY('detail',$,(#5)) ;
#50=SHAPE_DEFINITION_REPRESENTATION(#40,#49) ;
#57=TRIMMED_CURVE('',#54,(#55),(#56),.T.,.CARTESIAN.) ;
#69=TRIMMED_CURVE('',#66,(#67),(#68),.T.,.CARTESIAN.) ;
#78=TRIMMED_CURVE('',#75,(#76),(#77),.T.,.CARTESIAN.) ;
#510=TRIMMED_CURVE('',#507,(#508),(#509),.T.,.CARTESIAN.) ;
#518=TRIMMED_CURVE('',#515,(#516),(#517),.T.,.CARTESIAN.) ;
#93=VERTEX_POINT('',#92) ;
#95=VERTEX_POINT('',#94) ;
#102=VERTEX_POINT('',#101) ;
#109=VERTEX_POINT('',#108) ;
#150=VERTEX_POINT('',#149) ;
#152=VERTEX_POINT('',#151) ;
#159=VERTEX_POINT('',#158) ;
#166=VERTEX_POINT('',#165) ;
#207=VERTEX_POINT('',#206) ;
#209=VERTEX_POINT('',#208) ;
#216=VERTEX_POINT('',#215) ;
#223=VERTEX_POINT('',#222) ;
#264=VERTEX_POINT('',#263) ;
#266=VERTEX_POINT('',#265) ;
#273=VERTEX_POINT('',#272) ;
#280=VERTEX_POINT('',#279) ;
#321=VERTEX_POINT('',#320) ;
#328=VERTEX_POINT('',#327) ;
#406=VERTEX_POINT('',#405) ;
#413=VERTEX_POINT('',#412) ;
#453=VERTEX_POINT('',#452) ;
#455=VERTEX_POINT('',#454) ;
#41=(LENGTH_UNIT()NAMED_UNIT(*)SI_UNIT(.MILLI.,.METRE.)) ;
#42=(NAMED_UNIT(*)PLANE_ANGLE_UNIT()SI_UNIT($,.RADIAN.)) ;
#44=(NAMED_UNIT(*)SI_UNIT($,.STERADIAN.)SOLID_ANGLE_UNIT()) ;
#46=(GEOMETRIC_REPRESENTATION_CONTEXT(3)GLOBAL_UNCERTAINTY_ASSIGNED_CONTEXT((#45))GLOBAL_UNIT_ASSIGNED_CONTEXT((#41,#42,#44))REPRESENTATION_CONTEXT(' ',' ')) ;
ENDSEC;
END-ISO-10303-21;
